ISO-10303-21;
HEADER;
/* Generated by software containing ST-Developer
 * from STEP Tools, Inc. (www.steptools.com) 
 */

FILE_DESCRIPTION(
/* description */ (''),
/* implementation_level */ '2;1');

FILE_NAME(
/* name */ 
'/Users/davidwright/Library/CloudStorage/OneDrive-Personal/Rotax CAD D
rawings/VALVE MEASURE THREADED STUD STEP.step',
/* time_stamp */ '2022-05-01T22:19:33+01:00',
/* author */ (''),
/* organization */ (''),
/* preprocessor_version */ 'ST-DEVELOPER v18.1',
/* originating_system */ 'Autodesk Translation Framework v10.14.0.1471',

/* authorisation */ '');

FILE_SCHEMA (('AUTOMOTIVE_DESIGN { 1 0 10303 214 3 1 1 }'));
ENDSEC;

DATA;
#10=MECHANICAL_DESIGN_GEOMETRIC_PRESENTATION_REPRESENTATION('',(#13),#145);
#11=SHAPE_REPRESENTATION_RELATIONSHIP('SRR','None',#152,#12);
#12=ADVANCED_BREP_SHAPE_REPRESENTATION('',(#14),#144);
#13=STYLED_ITEM('',(#161),#14);
#14=MANIFOLD_SOLID_BREP('Body1',#60);
#15=PLANE('',#80);
#16=PLANE('',#81);
#17=LINE('',#139,#18);
#18=VECTOR('',#96,3.);
#19=CYLINDRICAL_SURFACE('',#78,2.942);
#20=FACE_OUTER_BOUND('',#24,.T.);
#21=FACE_OUTER_BOUND('',#25,.T.);
#22=FACE_OUTER_BOUND('',#26,.T.);
#23=FACE_OUTER_BOUND('',#27,.T.);
#24=EDGE_LOOP('',(#43,#44,#45,#46,#47));
#25=EDGE_LOOP('',(#48,#49,#50,#51,#52));
#26=EDGE_LOOP('',(#53));
#27=EDGE_LOOP('',(#54));
#28=CIRCLE('',#74,0.942);
#29=CIRCLE('',#75,2.);
#30=CIRCLE('',#76,2.942);
#31=CIRCLE('',#77,2.942);
#32=CIRCLE('',#79,2.942);
#33=VERTEX_POINT('',#129);
#34=VERTEX_POINT('',#131);
#35=VERTEX_POINT('',#133);
#36=VERTEX_POINT('',#137);
#37=EDGE_CURVE('',#33,#33,#28,.T.);
#38=EDGE_CURVE('',#33,#34,#29,.T.);
#39=EDGE_CURVE('',#34,#35,#30,.T.);
#40=EDGE_CURVE('',#35,#34,#31,.T.);
#41=EDGE_CURVE('',#36,#36,#32,.F.);
#42=EDGE_CURVE('',#36,#35,#17,.T.);
#43=ORIENTED_EDGE('',*,*,#37,.T.);
#44=ORIENTED_EDGE('',*,*,#38,.T.);
#45=ORIENTED_EDGE('',*,*,#39,.T.);
#46=ORIENTED_EDGE('',*,*,#40,.T.);
#47=ORIENTED_EDGE('',*,*,#38,.F.);
#48=ORIENTED_EDGE('',*,*,#41,.F.);
#49=ORIENTED_EDGE('',*,*,#42,.T.);
#50=ORIENTED_EDGE('',*,*,#39,.F.);
#51=ORIENTED_EDGE('',*,*,#40,.F.);
#52=ORIENTED_EDGE('',*,*,#42,.F.);
#53=ORIENTED_EDGE('',*,*,#37,.F.);
#54=ORIENTED_EDGE('',*,*,#41,.T.);
#55=(
BOUNDED_SURFACE()
B_SPLINE_SURFACE(2,2,((#102,#103,#104,#105,#106,#107,#108,#109,#110),(#111,
#112,#113,#114,#115,#116,#117,#118,#119),(#120,#121,#122,#123,#124,#125,
#126,#127,#128)),.UNSPECIFIED.,.F.,.T.,.F.)
B_SPLINE_SURFACE_WITH_KNOTS((3,3),(3,2,2,2,3),(0.,1.5707963267949),(-3.14159265358979,
-1.5707963267949,0.,1.5707963267949,3.14159265358979),.UNSPECIFIED.)
GEOMETRIC_REPRESENTATION_ITEM()
RATIONAL_B_SPLINE_SURFACE(((1.,0.707106781186548,1.,0.707106781186548,1.,
0.707106781186548,1.,0.707106781186548,1.),(0.707106781186548,0.5,0.707106781186548,
0.5,0.707106781186548,0.5,0.707106781186548,0.5,0.707106781186548),(1.,
0.707106781186548,1.,0.707106781186548,1.,0.707106781186548,1.,0.707106781186548,
1.)))
REPRESENTATION_ITEM('')
SURFACE()
);
#56=ADVANCED_FACE('',(#20),#55,.F.);
#57=ADVANCED_FACE('',(#21),#19,.T.);
#58=ADVANCED_FACE('',(#22),#15,.F.);
#59=ADVANCED_FACE('',(#23),#16,.T.);
#60=CLOSED_SHELL('',(#56,#57,#58,#59));
#61=DERIVED_UNIT_ELEMENT(#63,1.);
#62=DERIVED_UNIT_ELEMENT(#147,-3.);
#63=(
MASS_UNIT()
NAMED_UNIT(*)
SI_UNIT(.KILO.,.GRAM.)
);
#64=DERIVED_UNIT((#61,#62));
#65=MEASURE_REPRESENTATION_ITEM('density measure',
POSITIVE_RATIO_MEASURE(7850.),#64);
#66=PROPERTY_DEFINITION_REPRESENTATION(#71,#68);
#67=PROPERTY_DEFINITION_REPRESENTATION(#72,#69);
#68=REPRESENTATION('material name',(#70),#144);
#69=REPRESENTATION('density',(#65),#144);
#70=DESCRIPTIVE_REPRESENTATION_ITEM('Steel','Steel');
#71=PROPERTY_DEFINITION('material property','material name',#154);
#72=PROPERTY_DEFINITION('material property','density of part',#154);
#73=AXIS2_PLACEMENT_3D('placement',#101,#82,#83);
#74=AXIS2_PLACEMENT_3D('',#130,#84,#85);
#75=AXIS2_PLACEMENT_3D('',#132,#86,#87);
#76=AXIS2_PLACEMENT_3D('',#134,#88,#89);
#77=AXIS2_PLACEMENT_3D('',#135,#90,#91);
#78=AXIS2_PLACEMENT_3D('',#136,#92,#93);
#79=AXIS2_PLACEMENT_3D('',#138,#94,#95);
#80=AXIS2_PLACEMENT_3D('',#140,#97,#98);
#81=AXIS2_PLACEMENT_3D('',#141,#99,#100);
#82=DIRECTION('axis',(0.,0.,1.));
#83=DIRECTION('refdir',(1.,0.,0.));
#84=DIRECTION('center_axis',(0.,1.,0.));
#85=DIRECTION('ref_axis',(1.,0.,0.));
#86=DIRECTION('center_axis',(-1.,0.,-1.22464679914735E-16));
#87=DIRECTION('ref_axis',(-1.22464679914735E-16,0.,1.));
#88=DIRECTION('center_axis',(0.,-1.,0.));
#89=DIRECTION('ref_axis',(1.,0.,0.));
#90=DIRECTION('center_axis',(0.,-1.,0.));
#91=DIRECTION('ref_axis',(1.,0.,0.));
#92=DIRECTION('center_axis',(0.,1.,0.));
#93=DIRECTION('ref_axis',(1.,0.,0.));
#94=DIRECTION('center_axis',(0.,-1.,0.));
#95=DIRECTION('ref_axis',(1.,0.,0.));
#96=DIRECTION('',(0.,-1.,0.));
#97=DIRECTION('center_axis',(0.,1.,0.));
#98=DIRECTION('ref_axis',(1.,0.,0.));
#99=DIRECTION('center_axis',(0.,1.,0.));
#100=DIRECTION('ref_axis',(1.,0.,0.));
#101=CARTESIAN_POINT('',(0.,0.,0.));
#102=CARTESIAN_POINT('Ctrl Pts',(0.,2.,2.942));
#103=CARTESIAN_POINT('Ctrl Pts',(-2.942,2.,2.942));
#104=CARTESIAN_POINT('Ctrl Pts',(-2.942,2.,0.));
#105=CARTESIAN_POINT('Ctrl Pts',(-2.942,2.,-2.942));
#106=CARTESIAN_POINT('Ctrl Pts',(0.,2.,-2.942));
#107=CARTESIAN_POINT('Ctrl Pts',(2.942,2.,-2.942));
#108=CARTESIAN_POINT('Ctrl Pts',(2.942,2.,0.));
#109=CARTESIAN_POINT('Ctrl Pts',(2.942,2.,2.942));
#110=CARTESIAN_POINT('Ctrl Pts',(0.,2.,2.942));
#111=CARTESIAN_POINT('Ctrl Pts',(0.,-6.12323399573677E-17,2.942));
#112=CARTESIAN_POINT('Ctrl Pts',(-2.942,-6.12323399573676E-17,2.942));
#113=CARTESIAN_POINT('Ctrl Pts',(-2.942,0.,0.));
#114=CARTESIAN_POINT('Ctrl Pts',(-2.942,6.12323399573676E-17,-2.942));
#115=CARTESIAN_POINT('Ctrl Pts',(0.,6.12323399573677E-17,-2.942));
#116=CARTESIAN_POINT('Ctrl Pts',(2.942,6.12323399573676E-17,-2.942));
#117=CARTESIAN_POINT('Ctrl Pts',(2.942,0.,0.));
#118=CARTESIAN_POINT('Ctrl Pts',(2.942,-6.12323399573676E-17,2.942));
#119=CARTESIAN_POINT('Ctrl Pts',(0.,-6.12323399573677E-17,2.942));
#120=CARTESIAN_POINT('Ctrl Pts',(0.,0.,0.942));
#121=CARTESIAN_POINT('Ctrl Pts',(-0.942,0.,0.942));
#122=CARTESIAN_POINT('Ctrl Pts',(-0.942,0.,0.));
#123=CARTESIAN_POINT('Ctrl Pts',(-0.942,0.,-0.942));
#124=CARTESIAN_POINT('Ctrl Pts',(0.,0.,-0.942));
#125=CARTESIAN_POINT('Ctrl Pts',(0.942,0.,-0.942));
#126=CARTESIAN_POINT('Ctrl Pts',(0.942,0.,0.));
#127=CARTESIAN_POINT('Ctrl Pts',(0.942,0.,0.942));
#128=CARTESIAN_POINT('Ctrl Pts',(0.,0.,0.942));
#129=CARTESIAN_POINT('',(-1.15361728479681E-16,0.,0.942));
#130=CARTESIAN_POINT('Origin',(0.,0.,0.));
#131=CARTESIAN_POINT('',(-3.60291088309151E-16,2.,2.942));
#132=CARTESIAN_POINT('Origin',(-1.15361728479681E-16,2.,0.942));
#133=CARTESIAN_POINT('',(-2.942,2.,-3.60291088309151E-16));
#134=CARTESIAN_POINT('Origin',(0.,2.,0.));
#135=CARTESIAN_POINT('Origin',(0.,2.,0.));
#136=CARTESIAN_POINT('Origin',(0.,0.,0.));
#137=CARTESIAN_POINT('',(-2.942,72.,-3.60291088309151E-16));
#138=CARTESIAN_POINT('Origin',(0.,72.,0.));
#139=CARTESIAN_POINT('',(-2.942,0.,3.60291088309151E-16));
#140=CARTESIAN_POINT('Origin',(0.,0.,0.));
#141=CARTESIAN_POINT('Origin',(0.,72.,0.));
#142=UNCERTAINTY_MEASURE_WITH_UNIT(LENGTH_MEASURE(0.01),#146,
'DISTANCE_ACCURACY_VALUE',
'Maximum model space distance between geometric entities at asserted c
onnectivities');
#143=UNCERTAINTY_MEASURE_WITH_UNIT(LENGTH_MEASURE(0.01),#146,
'DISTANCE_ACCURACY_VALUE',
'Maximum model space distance between geometric entities at asserted c
onnectivities');
#144=(
GEOMETRIC_REPRESENTATION_CONTEXT(3)
GLOBAL_UNCERTAINTY_ASSIGNED_CONTEXT((#142))
GLOBAL_UNIT_ASSIGNED_CONTEXT((#146,#148,#149))
REPRESENTATION_CONTEXT('','3D')
);
#145=(
GEOMETRIC_REPRESENTATION_CONTEXT(3)
GLOBAL_UNCERTAINTY_ASSIGNED_CONTEXT((#143))
GLOBAL_UNIT_ASSIGNED_CONTEXT((#146,#148,#149))
REPRESENTATION_CONTEXT('','3D')
);
#146=(
LENGTH_UNIT()
NAMED_UNIT(*)
SI_UNIT(.MILLI.,.METRE.)
);
#147=(
LENGTH_UNIT()
NAMED_UNIT(*)
SI_UNIT($,.METRE.)
);
#148=(
NAMED_UNIT(*)
PLANE_ANGLE_UNIT()
SI_UNIT($,.RADIAN.)
);
#149=(
NAMED_UNIT(*)
SI_UNIT($,.STERADIAN.)
SOLID_ANGLE_UNIT()
);
#150=SHAPE_DEFINITION_REPRESENTATION(#151,#152);
#151=PRODUCT_DEFINITION_SHAPE('',$,#154);
#152=SHAPE_REPRESENTATION('',(#73),#144);
#153=PRODUCT_DEFINITION_CONTEXT('part definition',#158,'design');
#154=PRODUCT_DEFINITION('VALVE MEASURE THREADED STUD',
'VALVE MEASURE THREADED STUD v1',#155,#153);
#155=PRODUCT_DEFINITION_FORMATION('',$,#160);
#156=PRODUCT_RELATED_PRODUCT_CATEGORY('VALVE MEASURE THREADED STUD v1',
'VALVE MEASURE THREADED STUD v1',(#160));
#157=APPLICATION_PROTOCOL_DEFINITION('international standard',
'automotive_design',2009,#158);
#158=APPLICATION_CONTEXT(
'Core Data for Automotive Mechanical Design Process');
#159=PRODUCT_CONTEXT('part definition',#158,'mechanical');
#160=PRODUCT('VALVE MEASURE THREADED STUD',
'VALVE MEASURE THREADED STUD v1',$,(#159));
#161=PRESENTATION_STYLE_ASSIGNMENT((#162));
#162=SURFACE_STYLE_USAGE(.BOTH.,#163);
#163=SURFACE_SIDE_STYLE('',(#164));
#164=SURFACE_STYLE_FILL_AREA(#165);
#165=FILL_AREA_STYLE('Steel - Satin',(#166));
#166=FILL_AREA_STYLE_COLOUR('Steel - Satin',#167);
#167=COLOUR_RGB('Steel - Satin',0.627450980392157,0.627450980392157,0.627450980392157);
ENDSEC;
END-ISO-10303-21;
